ISO-10303-21;
HEADER;
/* Generated by software containing ST-Developer
 * from STEP Tools, Inc. (www.steptools.com) 
 */
/* OPTION: using custom schema-name function */

FILE_DESCRIPTION(
/* description */ (''),
/* implementation_level */ '2;1');

FILE_NAME(
/* name */ 'EX-FU32.stp',
/* time_stamp */ '2023-04-10T10:33:46+08:00',
/* author */ (''),
/* organization */ (''),
/* preprocessor_version */ 'ST-DEVELOPER v16.7',
/* originating_system */ 'SIEMENS PLM Software NX 12.0',
/* authorisation */ '');

FILE_SCHEMA (('AUTOMOTIVE_DESIGN { 1 0 10303 214 3 1 1 1 }'));
ENDSEC;

DATA;
#10=SHAPE_REPRESENTATION_RELATIONSHIP('None',
'relationship between EX-FU32-None and EX-FU32-None',#22,#11);
#11=ADVANCED_BREP_SHAPE_REPRESENTATION('EX-FU32-None',(#46,#47,#48),#313);
#12=SHAPE_DEFINITION_REPRESENTATION(#13,#22);
#13=PRODUCT_DEFINITION_SHAPE('','',#14);
#14=PRODUCT_DEFINITION(' ','',#16,#15);
#15=PRODUCT_DEFINITION_CONTEXT('part definition',#21,'design');
#16=PRODUCT_DEFINITION_FORMATION_WITH_SPECIFIED_SOURCE(' ',' ',#18,
 .NOT_KNOWN.);
#17=PRODUCT_RELATED_PRODUCT_CATEGORY('part','',(#18));
#18=PRODUCT('EX-FU32','EX-FU32',' ',(#19));
#19=PRODUCT_CONTEXT(' ',#21,'mechanical');
#20=APPLICATION_PROTOCOL_DEFINITION('international standard',
'automotive_design',2010,#21);
#21=APPLICATION_CONTEXT(
'core data for automotive mechanical design processes');
#22=SHAPE_REPRESENTATION('EX-FU32-None',(#192),#313);
#23=PRESENTATION_LAYER_ASSIGNMENT('1','Layer 1',(#46,#47,#48));
#24=STYLED_ITEM('',(#27),#46);
#25=STYLED_ITEM('',(#28),#47);
#26=STYLED_ITEM('',(#29),#48);
#27=PRESENTATION_STYLE_ASSIGNMENT((#30));
#28=PRESENTATION_STYLE_ASSIGNMENT((#31));
#29=PRESENTATION_STYLE_ASSIGNMENT((#32));
#30=SURFACE_STYLE_USAGE(.BOTH.,#33);
#31=SURFACE_STYLE_USAGE(.BOTH.,#34);
#32=SURFACE_STYLE_USAGE(.BOTH.,#35);
#33=SURFACE_SIDE_STYLE('',(#36));
#34=SURFACE_SIDE_STYLE('',(#37));
#35=SURFACE_SIDE_STYLE('',(#38));
#36=SURFACE_STYLE_FILL_AREA(#39);
#37=SURFACE_STYLE_FILL_AREA(#40);
#38=SURFACE_STYLE_FILL_AREA(#41);
#39=FILL_AREA_STYLE('',(#42));
#40=FILL_AREA_STYLE('',(#43));
#41=FILL_AREA_STYLE('',(#44));
#42=FILL_AREA_STYLE_COLOUR('',#45);
#43=FILL_AREA_STYLE_COLOUR('',#45);
#44=FILL_AREA_STYLE_COLOUR('',#45);
#45=COLOUR_RGB('Orange',1.,0.6,0.);
#46=MANIFOLD_SOLID_BREP('',#49);
#47=MANIFOLD_SOLID_BREP('',#50);
#48=MANIFOLD_SOLID_BREP('',#51);
#49=CLOSED_SHELL('',(#71,#72,#73,#74,#75,#76,#77,#78));
#50=CLOSED_SHELL('',(#79,#80,#81));
#51=CLOSED_SHELL('',(#82,#83,#84));
#52=PLANE('',#198);
#53=PLANE('',#199);
#54=PLANE('',#200);
#55=PLANE('',#202);
#56=PLANE('',#203);
#57=PLANE('',#206);
#58=PLANE('',#210);
#59=PLANE('',#211);
#60=PLANE('',#215);
#61=PLANE('',#216);
#62=FACE_OUTER_BOUND('',#103,.T.);
#63=FACE_OUTER_BOUND('',#104,.T.);
#64=FACE_OUTER_BOUND('',#105,.T.);
#65=FACE_OUTER_BOUND('',#108,.T.);
#66=FACE_OUTER_BOUND('',#111,.T.);
#67=FACE_OUTER_BOUND('',#114,.T.);
#68=FACE_OUTER_BOUND('',#115,.T.);
#69=FACE_OUTER_BOUND('',#118,.T.);
#70=FACE_OUTER_BOUND('',#119,.T.);
#71=ADVANCED_FACE('',(#89,#90,#91),#85,.T.);
#72=ADVANCED_FACE('',(#62),#52,.F.);
#73=ADVANCED_FACE('',(#63),#53,.T.);
#74=ADVANCED_FACE('',(#64),#54,.T.);
#75=ADVANCED_FACE('',(#92,#93),#55,.T.);
#76=ADVANCED_FACE('',(#65),#56,.T.);
#77=ADVANCED_FACE('',(#94,#95),#86,.F.);
#78=ADVANCED_FACE('',(#66),#57,.T.);
#79=ADVANCED_FACE('',(#96,#97),#87,.T.);
#80=ADVANCED_FACE('',(#67),#58,.T.);
#81=ADVANCED_FACE('',(#68),#59,.F.);
#82=ADVANCED_FACE('',(#98,#99),#88,.T.);
#83=ADVANCED_FACE('',(#69),#60,.F.);
#84=ADVANCED_FACE('',(#70),#61,.T.);
#85=CYLINDRICAL_SURFACE('',#197,0.45);
#86=CYLINDRICAL_SURFACE('',#205,0.25);
#87=CYLINDRICAL_SURFACE('',#209,1.5);
#88=CYLINDRICAL_SURFACE('',#214,0.65);
#89=FACE_BOUND('',#100,.T.);
#90=FACE_BOUND('',#101,.T.);
#91=FACE_BOUND('',#102,.T.);
#92=FACE_BOUND('',#106,.T.);
#93=FACE_BOUND('',#107,.T.);
#94=FACE_BOUND('',#109,.T.);
#95=FACE_BOUND('',#110,.T.);
#96=FACE_BOUND('',#112,.T.);
#97=FACE_BOUND('',#113,.T.);
#98=FACE_BOUND('',#116,.T.);
#99=FACE_BOUND('',#117,.T.);
#100=EDGE_LOOP('',(#130,#131,#132,#133));
#101=EDGE_LOOP('',(#134));
#102=EDGE_LOOP('',(#135));
#103=EDGE_LOOP('',(#136));
#104=EDGE_LOOP('',(#137));
#105=EDGE_LOOP('',(#138,#139));
#106=EDGE_LOOP('',(#140));
#107=EDGE_LOOP('',(#141,#142,#143,#144));
#108=EDGE_LOOP('',(#145,#146));
#109=EDGE_LOOP('',(#147));
#110=EDGE_LOOP('',(#148));
#111=EDGE_LOOP('',(#149));
#112=EDGE_LOOP('',(#150));
#113=EDGE_LOOP('',(#151));
#114=EDGE_LOOP('',(#152));
#115=EDGE_LOOP('',(#153));
#116=EDGE_LOOP('',(#154));
#117=EDGE_LOOP('',(#155));
#118=EDGE_LOOP('',(#156));
#119=EDGE_LOOP('',(#157));
#120=CIRCLE('',#193,0.45);
#121=CIRCLE('',#194,0.45);
#122=CIRCLE('',#195,0.45);
#123=CIRCLE('',#196,0.45);
#124=CIRCLE('',#201,0.25);
#125=CIRCLE('',#204,0.25);
#126=CIRCLE('',#207,1.5);
#127=CIRCLE('',#208,1.5);
#128=CIRCLE('',#212,0.65);
#129=CIRCLE('',#213,0.65);
#130=ORIENTED_EDGE('',*,*,#170,.T.);
#131=ORIENTED_EDGE('',*,*,#171,.T.);
#132=ORIENTED_EDGE('',*,*,#172,.T.);
#133=ORIENTED_EDGE('',*,*,#173,.T.);
#134=ORIENTED_EDGE('',*,*,#174,.T.);
#135=ORIENTED_EDGE('',*,*,#175,.F.);
#136=ORIENTED_EDGE('',*,*,#174,.F.);
#137=ORIENTED_EDGE('',*,*,#175,.T.);
#138=ORIENTED_EDGE('',*,*,#171,.F.);
#139=ORIENTED_EDGE('',*,*,#176,.F.);
#140=ORIENTED_EDGE('',*,*,#177,.F.);
#141=ORIENTED_EDGE('',*,*,#176,.T.);
#142=ORIENTED_EDGE('',*,*,#170,.F.);
#143=ORIENTED_EDGE('',*,*,#178,.F.);
#144=ORIENTED_EDGE('',*,*,#172,.F.);
#145=ORIENTED_EDGE('',*,*,#178,.T.);
#146=ORIENTED_EDGE('',*,*,#173,.F.);
#147=ORIENTED_EDGE('',*,*,#179,.T.);
#148=ORIENTED_EDGE('',*,*,#177,.T.);
#149=ORIENTED_EDGE('',*,*,#179,.F.);
#150=ORIENTED_EDGE('',*,*,#180,.F.);
#151=ORIENTED_EDGE('',*,*,#181,.T.);
#152=ORIENTED_EDGE('',*,*,#180,.T.);
#153=ORIENTED_EDGE('',*,*,#181,.F.);
#154=ORIENTED_EDGE('',*,*,#182,.T.);
#155=ORIENTED_EDGE('',*,*,#183,.F.);
#156=ORIENTED_EDGE('',*,*,#182,.F.);
#157=ORIENTED_EDGE('',*,*,#183,.T.);
#158=VERTEX_POINT('',#273);
#159=VERTEX_POINT('',#274);
#160=VERTEX_POINT('',#276);
#161=VERTEX_POINT('',#278);
#162=VERTEX_POINT('',#281);
#163=VERTEX_POINT('',#283);
#164=VERTEX_POINT('',#290);
#165=VERTEX_POINT('',#295);
#166=VERTEX_POINT('',#299);
#167=VERTEX_POINT('',#301);
#168=VERTEX_POINT('',#306);
#169=VERTEX_POINT('',#308);
#170=EDGE_CURVE('',#158,#159,#184,.T.);
#171=EDGE_CURVE('',#159,#160,#120,.T.);
#172=EDGE_CURVE('',#160,#161,#185,.T.);
#173=EDGE_CURVE('',#161,#158,#121,.T.);
#174=EDGE_CURVE('',#162,#162,#122,.T.);
#175=EDGE_CURVE('',#163,#163,#123,.T.);
#176=EDGE_CURVE('',#160,#159,#186,.T.);
#177=EDGE_CURVE('',#164,#164,#124,.T.);
#178=EDGE_CURVE('',#161,#158,#187,.T.);
#179=EDGE_CURVE('',#165,#165,#125,.T.);
#180=EDGE_CURVE('',#166,#166,#126,.T.);
#181=EDGE_CURVE('',#167,#167,#127,.T.);
#182=EDGE_CURVE('',#168,#168,#128,.T.);
#183=EDGE_CURVE('',#169,#169,#129,.T.);
#184=LINE('',#272,#188);
#185=LINE('',#277,#189);
#186=LINE('',#287,#190);
#187=LINE('',#291,#191);
#188=VECTOR('',#219,1.);
#189=VECTOR('',#222,1.);
#190=VECTOR('',#235,1.);
#191=VECTOR('',#240,1.);
#192=AXIS2_PLACEMENT_3D('',#271,#217,#218);
#193=AXIS2_PLACEMENT_3D('',#275,#220,#221);
#194=AXIS2_PLACEMENT_3D('',#279,#223,#224);
#195=AXIS2_PLACEMENT_3D('',#280,#225,#226);
#196=AXIS2_PLACEMENT_3D('',#282,#227,#228);
#197=AXIS2_PLACEMENT_3D('',#284,#229,#230);
#198=AXIS2_PLACEMENT_3D('',#285,#231,#232);
#199=AXIS2_PLACEMENT_3D('',#286,#233,#234);
#200=AXIS2_PLACEMENT_3D('',#288,#236,#237);
#201=AXIS2_PLACEMENT_3D('',#289,#238,#239);
#202=AXIS2_PLACEMENT_3D('',#292,#241,#242);
#203=AXIS2_PLACEMENT_3D('',#293,#243,#244);
#204=AXIS2_PLACEMENT_3D('',#294,#245,#246);
#205=AXIS2_PLACEMENT_3D('',#296,#247,#248);
#206=AXIS2_PLACEMENT_3D('',#297,#249,#250);
#207=AXIS2_PLACEMENT_3D('',#298,#251,#252);
#208=AXIS2_PLACEMENT_3D('',#300,#253,#254);
#209=AXIS2_PLACEMENT_3D('',#302,#255,#256);
#210=AXIS2_PLACEMENT_3D('',#303,#257,#258);
#211=AXIS2_PLACEMENT_3D('',#304,#259,#260);
#212=AXIS2_PLACEMENT_3D('',#305,#261,#262);
#213=AXIS2_PLACEMENT_3D('',#307,#263,#264);
#214=AXIS2_PLACEMENT_3D('',#309,#265,#266);
#215=AXIS2_PLACEMENT_3D('',#310,#267,#268);
#216=AXIS2_PLACEMENT_3D('',#311,#269,#270);
#217=DIRECTION('',(0.,0.,1.));
#218=DIRECTION('',(1.,0.,0.));
#219=DIRECTION('',(-1.,0.,0.));
#220=DIRECTION('',(-1.,0.,0.));
#221=DIRECTION('',(0.,0.,-1.));
#222=DIRECTION('',(1.,0.,0.));
#223=DIRECTION('',(1.,0.,0.));
#224=DIRECTION('',(0.,0.,1.));
#225=DIRECTION('',(1.,0.,0.));
#226=DIRECTION('',(0.,1.22464679914735E-16,1.));
#227=DIRECTION('',(1.,0.,0.));
#228=DIRECTION('',(0.,1.22464679914735E-16,1.));
#229=DIRECTION('',(1.,0.,0.));
#230=DIRECTION('',(0.,0.,-1.));
#231=DIRECTION('',(1.,0.,0.));
#232=DIRECTION('',(0.,0.,-1.));
#233=DIRECTION('',(1.,0.,0.));
#234=DIRECTION('',(0.,0.,-1.));
#235=DIRECTION('',(0.,0.,1.));
#236=DIRECTION('',(1.,0.,0.));
#237=DIRECTION('',(0.,0.,-1.));
#238=DIRECTION('',(0.,1.,0.));
#239=DIRECTION('',(0.999999999999999,0.,6.12323399573677E-17));
#240=DIRECTION('',(0.,0.,1.));
#241=DIRECTION('',(0.,1.,0.));
#242=DIRECTION('',(0.,0.,1.));
#243=DIRECTION('',(-1.,0.,0.));
#244=DIRECTION('',(0.,0.,1.));
#245=DIRECTION('',(0.,-1.,0.));
#246=DIRECTION('',(0.999999999999999,0.,6.12323399573677E-17));
#247=DIRECTION('',(0.,1.,0.));
#248=DIRECTION('',(0.,0.,1.));
#249=DIRECTION('',(0.,1.,0.));
#250=DIRECTION('',(0.,0.,1.));
#251=DIRECTION('',(-1.,0.,0.));
#252=DIRECTION('',(0.,1.,6.12323399573677E-17));
#253=DIRECTION('',(-1.,0.,0.));
#254=DIRECTION('',(0.,1.,6.12323399573677E-17));
#255=DIRECTION('',(1.,0.,0.));
#256=DIRECTION('',(0.,0.,-1.));
#257=DIRECTION('',(-1.,0.,0.));
#258=DIRECTION('',(0.,0.,1.));
#259=DIRECTION('',(-1.,0.,0.));
#260=DIRECTION('',(0.,0.,1.));
#261=DIRECTION('',(-1.,0.,0.));
#262=DIRECTION('',(0.,1.,6.12323399573677E-17));
#263=DIRECTION('',(-1.,0.,0.));
#264=DIRECTION('',(0.,1.,6.12323399573677E-17));
#265=DIRECTION('',(-1.,0.,0.));
#266=DIRECTION('',(0.,0.,1.));
#267=DIRECTION('',(-1.,0.,0.));
#268=DIRECTION('',(0.,0.,1.));
#269=DIRECTION('',(-1.,0.,0.));
#270=DIRECTION('',(0.,0.,1.));
#271=CARTESIAN_POINT('',(0.,0.,0.));
#272=CARTESIAN_POINT('',(0.,0.,0.45));
#273=CARTESIAN_POINT('',(2.7,0.,0.45));
#274=CARTESIAN_POINT('',(1.13487738419619,0.,0.45));
#275=CARTESIAN_POINT('',(1.13487738419619,0.,0.));
#276=CARTESIAN_POINT('',(1.13487738419619,0.,-0.45));
#277=CARTESIAN_POINT('',(0.,0.,-0.45));
#278=CARTESIAN_POINT('',(2.7,0.,-0.45));
#279=CARTESIAN_POINT('',(2.7,0.,0.));
#280=CARTESIAN_POINT('',(0.,0.,0.));
#281=CARTESIAN_POINT('',(0.,5.51091059616309E-17,0.45));
#282=CARTESIAN_POINT('',(15.,0.,0.));
#283=CARTESIAN_POINT('',(15.,5.51091059616309E-17,0.45));
#284=CARTESIAN_POINT('',(0.,0.,0.));
#285=CARTESIAN_POINT('',(0.,0.,0.));
#286=CARTESIAN_POINT('',(15.,0.,0.));
#287=CARTESIAN_POINT('',(1.13487738419619,0.,-4.33680868994202E-16));
#288=CARTESIAN_POINT('',(1.13487738419619,0.8,-4.33680868994202E-16));
#289=CARTESIAN_POINT('',(1.91743869209809,0.,0.));
#290=CARTESIAN_POINT('',(2.16743869209809,0.,1.53080849893419E-17));
#291=CARTESIAN_POINT('',(2.7,0.,-4.33680868994202E-16));
#292=CARTESIAN_POINT('',(1.13487738419619,0.,-4.33680868994202E-16));
#293=CARTESIAN_POINT('',(2.7,0.,-4.33680868994202E-16));
#294=CARTESIAN_POINT('',(1.91743869209809,-0.05,0.));
#295=CARTESIAN_POINT('',(2.16743869209809,-0.05,1.53080849893419E-17));
#296=CARTESIAN_POINT('',(1.91743869209809,-0.05,0.));
#297=CARTESIAN_POINT('',(1.91743869209809,-0.05,0.));
#298=CARTESIAN_POINT('',(15.,0.,0.));
#299=CARTESIAN_POINT('',(15.,1.5,9.18485099360515E-17));
#300=CARTESIAN_POINT('',(30.,0.,0.));
#301=CARTESIAN_POINT('',(30.,1.5,9.18485099360515E-17));
#302=CARTESIAN_POINT('',(15.,0.,0.));
#303=CARTESIAN_POINT('',(15.,0.,0.));
#304=CARTESIAN_POINT('',(30.,0.,0.));
#305=CARTESIAN_POINT('',(45.,0.,0.));
#306=CARTESIAN_POINT('',(45.,0.65,3.9801020972289E-17));
#307=CARTESIAN_POINT('',(30.,0.,0.));
#308=CARTESIAN_POINT('',(30.,0.65,3.9801020972289E-17));
#309=CARTESIAN_POINT('',(45.,0.,0.));
#310=CARTESIAN_POINT('',(45.,0.,0.));
#311=CARTESIAN_POINT('',(30.,0.,0.));
#312=MECHANICAL_DESIGN_GEOMETRIC_PRESENTATION_REPRESENTATION('',(#24,#25,
#26),#313);
#313=(
GEOMETRIC_REPRESENTATION_CONTEXT(3)
GLOBAL_UNCERTAINTY_ASSIGNED_CONTEXT((#314))
GLOBAL_UNIT_ASSIGNED_CONTEXT((#320,#316,#315))
REPRESENTATION_CONTEXT('EX-FU32','TOP_LEVEL_ASSEMBLY_PART')
);
#314=UNCERTAINTY_MEASURE_WITH_UNIT(LENGTH_MEASURE(2.E-5),#320,
'DISTANCE_ACCURACY_VALUE','Maximum Tolerance applied to model');
#315=(
NAMED_UNIT(*)
SI_UNIT($,.STERADIAN.)
SOLID_ANGLE_UNIT()
);
#316=(
CONVERSION_BASED_UNIT('DEGREE',#318)
NAMED_UNIT(#317)
PLANE_ANGLE_UNIT()
);
#317=DIMENSIONAL_EXPONENTS(0.,0.,0.,0.,0.,0.,0.);
#318=PLANE_ANGLE_MEASURE_WITH_UNIT(PLANE_ANGLE_MEASURE(0.0174532925),#319);
#319=(
NAMED_UNIT(*)
PLANE_ANGLE_UNIT()
SI_UNIT($,.RADIAN.)
);
#320=(
LENGTH_UNIT()
NAMED_UNIT(*)
SI_UNIT(.MILLI.,.METRE.)
);
ENDSEC;
END-ISO-10303-21;
